  0
SECTION
  2
HEADER
  9
$ACADVER
  1
AC1014
  9
$HANDSEED
  5
FFFF
  9
$MEASUREMENT
 70
     1
  0
ENDSEC
  0
SECTION
  2
TABLES
  0
TABLE
  2
VPORT
  5
8
330
0
100
AcDbSymbolTable
 70
     4
  0
VPORT
  5
2E
330
8
100
AcDbSymbolTableRecord
100
AcDbViewportTableRecord
  2
*ACTIVE
 70
     0
 10
0.0
 20
0.0
 11
1.0
 21
1.0
 12
210.0
 22
148.5
 13
0.0
 23
0.0
 14
10.0
 24
10.0
 15
10.0
 25
10.0
 16
0.0
 26
0.0
 36
1.0
 17
0.0
 27
0.0
 37
0.0
 40
341.0
 41
1.24
 42
50.0
 43
0.0
 44
0.0
 50
0.0
 51
0.0
 71
     0
 72
   100
 73
     1
 74
     3
 75
     0
 76
     0
 77
     0
 78
     0
  0
ENDTAB
  0
TABLE
  2
LTYPE
  5
5
330
0
100
AcDbSymbolTable
 70
     1
  0
LTYPE
  5
14
330
5
100
AcDbSymbolTableRecord
100
AcDbLinetypeTableRecord
  2
BYBLOCK
 70
     0
  3

 72
    65
 73
     0
 40
0.0
  0
LTYPE
  5
15
330
5
100
AcDbSymbolTableRecord
100
AcDbLinetypeTableRecord
  2
BYLAYER
 70
     0
  3

 72
    65
 73
     0
 40
0.0
  0
LTYPE
  5
16
330
5
100
AcDbSymbolTableRecord
100
AcDbLinetypeTableRecord
  2
CONTINUOUS
 70
     0
  3
Solid line
 72
    65
 73
     0
 40
0.0
  0
ENDTAB
  0
TABLE
  2
LAYER
  5
2
100
AcDbSymbolTable
 70
4
  0
LAYER
  5
50
100
AcDbSymbolTableRecord
100
AcDbLayerTableRecord
  2
0
 70
0
  6
CONTINUOUS
  0
LAYER
  5
51
100
AcDbSymbolTableRecord
100
AcDbLayerTableRecord
  2
Hintergrund
 70
0
  6
CONTINUOUS
  0
LAYER
  5
52
100
AcDbSymbolTableRecord
100
AcDbLayerTableRecord
  2
Ebene_1
 70
0
  6
CONTINUOUS
  0
LAYER
  5
53
100
AcDbSymbolTableRecord
100
AcDbLayerTableRecord
  2
Schnittlinie
 70
0
  6
CONTINUOUS
  0
ENDTAB
  0
TABLE
  2
STYLE
  5
3
330
0
100
AcDbSymbolTable
 70
     1
  0
STYLE
  5
11
330
3
100
AcDbSymbolTableRecord
100
AcDbTextStyleTableRecord
  2
STANDARD
 70
     0
 40
0.0
 41
1.0
 50
0.0
 71
     0
 42
2.5
  3
txt
  4

  0
ENDTAB
  0
TABLE
  2
VIEW
  5
6
330
0
100
AcDbSymbolTable
 70
     0
  0
ENDTAB
  0
TABLE
  2
UCS
  5
7
330
0
100
AcDbSymbolTable
 70
     0
  0
ENDTAB
  0
TABLE
  2
APPID
  5
9
330
0
100
AcDbSymbolTable
 70
     2
  0
APPID
  5
12
330
9
100
AcDbSymbolTableRecord
100
AcDbRegAppTableRecord
  2
ACAD
 70
     0
  0
ENDTAB
  0
TABLE
  2
DIMSTYLE
  5
A
330
0
100
AcDbSymbolTable
 70
     1
  0
DIMSTYLE
105
27
330
A
100
AcDbSymbolTableRecord
100
AcDbDimStyleTableRecord
  2
ISO-25
 70
     0
  3

  4

  5

  6

  7

 40
1.0
 41
2.5
 42
0.625
 43
3.75
 44
1.25
 45
0.0
 46
0.0
 47
0.0
 48
0.0
140
2.5
141
2.5
142
0.0
143
0.03937007874016
144
1.0
145
0.0
146
1.0
147
0.625
 71
     0
 72
     0
 73
     0
 74
     0
 75
     0
 76
     0
 77
     1
 78
     8
170
     0
171
     3
172
     1
173
     0
174
     0
175
     0
176
     0
177
     0
178
     0
270
     2
271
     2
272
     2
273
     2
274
     3
340
11
275
     0
280
     0
281
     0
282
     0
283
     0
284
     8
285
     0
286
     0
287
     3
288
     0
  0
ENDTAB
  0
TABLE
  2
BLOCK_RECORD
  5
1
330
0
100
AcDbSymbolTable
 70
     1
  0
BLOCK_RECORD
  5
1F
330
1
100
AcDbSymbolTableRecord
100
AcDbBlockTableRecord
  2
*MODEL_SPACE
  0
BLOCK_RECORD
  5
1B
330
1
100
AcDbSymbolTableRecord
100
AcDbBlockTableRecord
  2
*PAPER_SPACE
  0
ENDTAB
  0
ENDSEC
  0
SECTION
  2
BLOCKS
  0
BLOCK
  5
20
330
1F
100
AcDbEntity
  8
0
100
AcDbBlockBegin
  2
*MODEL_SPACE
 70
     0
 10
0.0
 20
0.0
 30
0.0
  3
*MODEL_SPACE
  1

  0
ENDBLK
  5
21
330
1F
100
AcDbEntity
  8
0
100
AcDbBlockEnd
  0
BLOCK
  5
1C
330
1B
100
AcDbEntity
 67
     1
  8
0
100
AcDbBlockBegin
  2
*PAPER_SPACE
  1

  0
ENDBLK
  5
1D
330
1B
100
AcDbEntity
 67
     1
  8
0
100
AcDbBlockEnd
  0
ENDSEC
  0
SECTION
  2
ENTITIES
  0
SPLINE
  5
100
100
AcDbEntity
  8
Hintergrund
 62
6
100
AcDbSpline
 70
8
 71
3
 72
8
 73
4
 74
0
 40
0
 40
0
 40
0
 40
0
 40
1
 40
1
 40
1
 40
1
 10
248.044898
 20
1349.697487
 30
0.0
 10
248.044898
 20
1154.185965
 30
0.0
 10
182.770242
 20
1155.260863
 30
0.0
 10
182.770242
 20
1115.892578
 30
0.0
  0
LWPOLYLINE
  5
101
100
AcDbEntity
  8
Hintergrund
 62
6
100
AcDbPolyline
 90
2
 70
0
 10
833.812172
 20
1351.030898
 30
0.0
 10
833.812172
 20
1351.030898
 30
0.0
  0
SPLINE
  5
102
100
AcDbEntity
  8
Hintergrund
 62
6
100
AcDbSpline
 70
8
 71
3
 72
8
 73
4
 74
0
 40
0
 40
0
 40
0
 40
0
 40
1
 40
1
 40
1
 40
1
 10
182.770242
 20
686.091605
 30
0.0
 10
197.202036
 20
556.248144
 30
0.0
 10
303.295838
 20
432.114814
 30
0.0
 10
334.943456
 20
394.141153
 30
0.0
  0
SPLINE
  5
103
100
AcDbEntity
  8
Hintergrund
 62
6
100
AcDbSpline
 70
8
 71
3
 72
8
 73
4
 74
0
 40
0
 40
0
 40
0
 40
0
 40
1
 40
1
 40
1
 40
1
 10
334.943456
 20
394.141153
 30
0.0
 10
366.591141
 20
356.167469
 30
0.0
 10
404.644535
 20
322.018628
 30
0.0
 10
439.061964
 20
295.156505
 30
0.0
  0
SPLINE
  5
104
100
AcDbEntity
  8
Hintergrund
 62
6
100
AcDbSpline
 70
8
 71
3
 72
8
 73
4
 74
0
 40
0
 40
0
 40
0
 40
0
 40
1
 40
1
 40
1
 40
1
 10
439.061964
 20
295.156505
 30
0.0
 10
536.607586
 20
222.694345
 30
0.0
 10
668.384414
 20
171.187064
 30
0.0
 10
831.336401
 20
171.487287
 30
0.0
  0
SPLINE
  5
105
100
AcDbEntity
  8
Hintergrund
 62
6
100
AcDbSpline
 70
8
 71
3
 72
8
 73
4
 74
0
 40
0
 40
0
 40
0
 40
0
 40
1
 40
1
 40
1
 40
1
 10
831.336401
 20
171.487287
 30
0.0
 10
994.288388
 20
171.787510
 30
0.0
 10
1118.194810
 20
215.088446
 30
0.0
 10
1223.637142
 20
295.149702
 30
0.0
  0
SPLINE
  5
106
100
AcDbEntity
  8
Hintergrund
 62
6
100
AcDbSpline
 70
8
 71
3
 72
8
 73
4
 74
0
 40
0
 40
0
 40
0
 40
0
 40
1
 40
1
 40
1
 40
1
 10
1223.637142
 20
295.149702
 30
0.0
 10
1258.054571
 20
322.011825
 30
0.0
 10
1296.107966
 20
356.160665
 30
0.0
 10
1327.755651
 20
394.134349
 30
0.0
  0
SPLINE
  5
107
100
AcDbEntity
  8
Hintergrund
 62
6
100
AcDbSpline
 70
8
 71
3
 72
8
 73
4
 74
0
 40
0
 40
0
 40
0
 40
0
 40
1
 40
1
 40
1
 40
1
 10
1327.755651
 20
394.134349
 30
0.0
 10
1359.403268
 20
432.108011
 30
0.0
 10
1465.497071
 20
556.241341
 30
0.0
 10
1479.928728
 20
686.084802
 30
0.0
  0
LWPOLYLINE
  5
108
100
AcDbEntity
  8
Hintergrund
 62
6
100
AcDbPolyline
 90
2
 70
0
 10
248.044898
 20
1615.572805
 30
0.0
 10
248.044898
 20
1349.697487
 30
0.0
  0
SPLINE
  5
109
100
AcDbEntity
  8
Hintergrund
 62
6
100
AcDbSpline
 70
8
 71
3
 72
8
 73
4
 74
0
 40
0
 40
0
 40
0
 40
0
 40
1
 40
1
 40
1
 40
1
 10
1479.928728
 20
1115.885775
 30
0.0
 10
1479.928728
 20
1155.254060
 30
0.0
 10
1413.231579
 20
1154.179162
 30
0.0
 10
1413.231579
 20
1349.690684
 30
0.0
  0
LWPOLYLINE
  5
10a
100
AcDbEntity
  8
Hintergrund
 62
6
100
AcDbPolyline
 90
2
 70
0
 10
182.770242
 20
1115.892578
 30
0.0
 10
182.770242
 20
686.091605
 30
0.0
  0
SPLINE
  5
10b
100
AcDbEntity
  8
Hintergrund
 62
6
100
AcDbSpline
 70
8
 71
3
 72
8
 73
4
 74
0
 40
0
 40
0
 40
0
 40
0
 40
1
 40
1
 40
1
 40
1
 10
1413.185091
 20
1905.517168
 30
0.0
 10
1413.185091
 20
2101.028689
 30
0.0
 10
1479.882240
 20
2099.953792
 30
0.0
 10
1479.882240
 20
2139.322077
 30
0.0
  0
LWPOLYLINE
  5
10c
100
AcDbEntity
  8
Hintergrund
 62
6
100
AcDbPolyline
 90
2
 70
0
 10
1479.928728
 20
686.084802
 30
0.0
 10
1479.928728
 20
1115.885775
 30
0.0
  0
SPLINE
  5
10d
100
AcDbEntity
  8
Hintergrund
 62
6
100
AcDbSpline
 70
8
 71
3
 72
8
 73
4
 74
0
 40
0
 40
0
 40
0
 40
0
 40
1
 40
1
 40
1
 40
1
 10
1479.882240
 20
2569.123054
 30
0.0
 10
1465.450582
 20
2698.966511
 30
0.0
 10
1359.356780
 20
2823.099840
 30
0.0
 10
1327.709163
 20
2861.073501
 30
0.0
  0
SPLINE
  5
10e
100
AcDbEntity
  8
Hintergrund
 62
6
100
AcDbSpline
 70
8
 71
3
 72
8
 73
4
 74
0
 40
0
 40
0
 40
0
 40
0
 40
1
 40
1
 40
1
 40
1
 10
1327.709163
 20
2861.073501
 30
0.0
 10
1296.061478
 20
2899.047186
 30
0.0
 10
1258.008083
 20
2933.196026
 30
0.0
 10
1223.590654
 20
2960.058149
 30
0.0
  0
SPLINE
  5
10f
100
AcDbEntity
  8
Hintergrund
 62
6
100
AcDbSpline
 70
8
 71
3
 72
8
 73
4
 74
0
 40
0
 40
0
 40
0
 40
0
 40
1
 40
1
 40
1
 40
1
 10
1223.590654
 20
2960.058149
 30
0.0
 10
1118.148322
 20
3040.119405
 30
0.0
 10
994.241900
 20
3083.420341
 30
0.0
 10
831.289913
 20
3083.720565
 30
0.0
  0
SPLINE
  5
110
100
AcDbEntity
  8
Hintergrund
 62
6
100
AcDbSpline
 70
8
 71
3
 72
8
 73
4
 74
0
 40
0
 40
0
 40
0
 40
0
 40
1
 40
1
 40
1
 40
1
 10
831.289913
 20
3083.720565
 30
0.0
 10
668.337925
 20
3084.020788
 30
0.0
 10
536.561098
 20
3032.513507
 30
0.0
 10
439.015476
 20
2960.051346
 30
0.0
  0
SPLINE
  5
111
100
AcDbEntity
  8
Hintergrund
 62
6
100
AcDbSpline
 70
8
 71
3
 72
8
 73
4
 74
0
 40
0
 40
0
 40
0
 40
0
 40
1
 40
1
 40
1
 40
1
 10
439.015476
 20
2960.051346
 30
0.0
 10
404.598047
 20
2933.189223
 30
0.0
 10
366.544653
 20
2899.040383
 30
0.0
 10
334.896967
 20
2861.066699
 30
0.0
  0
SPLINE
  5
112
100
AcDbEntity
  8
Hintergrund
 62
6
100
AcDbSpline
 70
8
 71
3
 72
8
 73
4
 74
0
 40
0
 40
0
 40
0
 40
0
 40
1
 40
1
 40
1
 40
1
 10
334.896967
 20
2861.066699
 30
0.0
 10
303.249350
 20
2823.093037
 30
0.0
 10
197.155548
 20
2698.959708
 30
0.0
 10
182.723754
 20
2569.116251
 30
0.0
  0
LWPOLYLINE
  5
113
100
AcDbEntity
  8
Hintergrund
 62
6
100
AcDbPolyline
 90
4
 70
0
 10
1413.231579
 20
1349.690684
 30
0.0
 10
1413.231579
 20
1615.566002
 30
0.0
 10
1413.185091
 20
1639.641849
 30
0.0
 10
1413.185091
 20
1905.517168
 30
0.0
  0
SPLINE
  5
114
100
AcDbEntity
  8
Hintergrund
 62
6
100
AcDbSpline
 70
8
 71
3
 72
8
 73
4
 74
0
 40
0
 40
0
 40
0
 40
0
 40
1
 40
1
 40
1
 40
1
 10
182.723754
 20
2139.315273
 30
0.0
 10
182.723754
 20
2099.946989
 30
0.0
 10
247.998410
 20
2101.021886
 30
0.0
 10
247.998410
 20
1905.510365
 30
0.0
  0
LWPOLYLINE
  5
115
100
AcDbEntity
  8
Hintergrund
 62
6
100
AcDbPolyline
 90
2
 70
0
 10
1479.882240
 20
2139.322077
 30
0.0
 10
1479.882240
 20
2569.123054
 30
0.0
  0
LWPOLYLINE
  5
116
100
AcDbEntity
  8
Hintergrund
 62
6
100
AcDbPolyline
 90
2
 70
0
 10
182.723754
 20
2569.116251
 30
0.0
 10
182.723754
 20
2139.315273
 30
0.0
  0
LWPOLYLINE
  5
117
100
AcDbEntity
  8
Hintergrund
 62
6
100
AcDbPolyline
 90
3
 70
0
 10
247.998410
 20
1905.510365
 30
0.0
 10
247.998410
 20
1639.635046
 30
0.0
 10
248.044898
 20
1615.572805
 30
0.0
  0
LWPOLYLINE
  5
118
100
AcDbEntity
  8
Hintergrund
 62
7
100
AcDbPolyline
 90
2
 70
0
 10
833.816821
 20
1351.025138
 30
0.0
 10
833.816821
 20
1351.025138
 30
0.0
  0
ENDSEC
  0
SECTION
  2
OBJECTS
  0
DICTIONARY
  5
C
330
0
100
AcDbDictionary
  3
ACAD_GROUP
350
D
  3
ACAD_MLINESTYLE
350
17
  0
DICTIONARY
  5
D
330
C
100
AcDbDictionary
  0
DICTIONARY
  5
1A
330
C
100
AcDbDictionary
  0
DICTIONARY
  5
17
330
C
100
AcDbDictionary
  3
STANDARD
350
18
  0
DICTIONARY
  5
19
330
C
100
AcDbDictionary
  0
ENDSEC
  0
EOF
